"Winter" Tab

Written by James Grant
From the album Dogs In The Traffic
Transcribed by Ross A Nisbet (nnisbetfamily@cs.com)

My name is Ross Nisbet and I am a hugh L&M/James Grant fan. I am delighted you have added the guitar section to your excellent site. I can play a few tunes on the guitar, however, I am still working on most of them. Please find attached Winter transcribed. Please let me know about the above and what you thought of Winter and if you want I will try to send some more songs (any requests). The song I am close to finishing is No Chicane. Keep up the good work.

WINTER

(Please note that I have transcribed this open, however, James plays this Capoed at the 1ST fret.)

Intro
----------0------------0----------0-------------------------------------------------------------------
------0------------0----------0-----------------------------------------------------------------------
-------------------------------------------------------------------------------------------------------
---7-----------6----------4-----------2---------------------h--p------------------------------------
-------------------------------------------------2--4--5----4-5-4----2------------------------------
-------------------------------------------------------------------------------------------------------

E (Strummed for about 8 seconds), then
(I'm not 100% sure this part is right)

-------------------------------------------------------------------------------------------------------
-------------------------------------------------------------------------------------------------------
-------------------------------------------------------------------------------------------------------
------------------h--p--------------------------------------------------------------------------------
------------2---4--5--4------------------------------------------------------------------------------
-------------------------------------------------------------------------------------------------------

VERSE 1
E
I wish this dream would end so another could begin

-------A------------------------------------------E
Lord, pull me out the mire of regret let me walk on beach again

---------B---------------------------------A----------------------------E
When love turns to dust leaves the splinters of your trust forgiver

B-----------------------------A--------------------------E
Shine on shine on in the beauty of the storm I wither

E
You could crack this stony sky with a single burning kiss

----------------A---------------------------------E
You could bleed this starless night like a desert oasis

---------B---------------------------------A----------------------------E
When love turns to dust leaves the splinters of your trust forgiver

B-----------------------------A--------------------------E
Shine on shine on in the beauty of the storm I wither

-----------------F#------------A----------------------E
If you're the only star in countless constellations

F#---------------------A--------------B
Shine on the debris of my situation

CHORUS
E
Winter

Winter

A
Winter

E
Winter

B---------------------------A------------------------E
Shine on shine on in the beauty of the storm I wither I wither

VERSE 2
E
When the promise that you made is broken or betrayed

-------A-----------------------------------E
Like bigotry's poison stain like the countryside that's raped

---------B-------------------------------A------------------------E
When love turns to dust leaves the splinters of your trust forgiver (Am I forgiven)

B---------------------------A------------------------C#
Shine on shine on in the beauty of the storm I wither

B---------------------------A
Shine on shine on in the beauty of the storm

Repeat Chorus

Guitar Solo (Same chords as Chorus until A then;)

Repeat Intro


Click here to return to Love and Money Guitar Tab section.
Click here to return to Love and Money main menu.