"Littledeath" Tab

Written by James Grant
From the album Littledeath
Transcribed by Ross A Nisbet (nnisbetfamily@cs.com)

Here's one more for you; its quite basic but fun to play. The base notes (open E and open A) are not on the album but I think it makes it sound better. Please note that I have only transcribed the main guitar but I think it sounds pretty cool.

PART 1
---7-----5-----3-----2-----3-----2---------------------7----5--------7----5-------7-----5---3--5
------------------------------------------5------------------------------------------------------------
-----------------------------------------------4----5---------------5------------4-------------------
-------------------------------------------------------------------------------------------------------
-----------------------------------------------------0---------------0--------------------------------
---0------------------------------------------------------------------------------0-------------------

---7-----5-----3-----2-----3-----2---------------------7----5--------7----5-------7-----5--------
------------------------------------------5------------------------------------------------------------
-----------------------------------------------4----5---------------5------------4-------------------
------------------------------------------------------------------------------------------------------
-----------------------------------------------------0---------------0--------------------------------
---0------------------------------------------------------------------------------0-------------------

PART 2
----3--2----------------3---2---------------2----3----5-------3---2-------------------------------
---------------5----------------------3-----------------------------------2--------------------------
-------------------------------------------------------------------------------------------------------
-------------------------------------------------------------------------------------------------------
-------------------------------------------------------------------------------------------------------
-------------------------------------------------------------------------------------------------------

----3--2----------------3---2---------------2----3----5-------2---3----5--------------------------
----------------5----------------------3--------------------------------------------------------------
-------------------------------------------------------------------------------------------------------
-------------------------------------------------------------------------------------------------------
-------------------------------------------------------------------------------------------------------
-------------------------------------------------------------------------------------------------------

Repeat Part 1 then Part 2

Short break with no main guitar part

Repeat Part 1 three and a half times linking each time with below notes on top string
-----3-----5-------------------------------------------------------------------------------

PART 3 (ENDING)
----7----5----3---2----3----2-----------------------------------------------------------
-------------------------------------5-----3-----5---------------------------------------
------------------------------------------------------------------------------------------
-------------------------------------------------------------------------------------------
-------------------------------------------------------------------------------------------
-------------------------------------------------------------------------------------------


Click here to return to Love and Money Guitar Tab section.
Click here to return to Love and Money main menu.